The Bell Witch

Transcribed by ?


(Coven's note: this seems to be horribly edited. It's not my fault...)

Rhy. A

e: -------------------------------------------------------------------------------------
b: ------------------------------------------------------------------------------------
g: ------------------------------------7----6----5------------------------------------
d: ----------------------------------------------------------4-------2---4--------6--
a: --2---4---4---2---4---4------5---5----4----3-------------4------------4-------
e: --0---2---2---0---2---2------5----------------------2----------------------------

e: -------------------------------------------------------------------------------------------------------
b: ------------------------------------------------------------------------------------------------------
g: -------------------s----------------------------------------------------------------------------------
d: ----7-6---4---7-9----7--------------7--6-------5--4------------6--7------5--4-------3--2----
a: -----------------------------6-------5----------7----------5--4------------3---------5----------3-
e: ------------------------------------------------------------------------------------------------------


(Little Betsy)



e: -------------------------------------------------------------------------------------------------------
b: ------------------------------------------------------------------------------------------------------
g: ------------------------------------------------------------------------------------------------------
d: ---2----------4-----------5-----------4----------5--------7-----5----4----------------------------
a: ---0----------2-----------3-----------2----------3--------5-----3----2----2----4----5----2------
e: -------------------------------------------------------------------------------------------------------


..scream

e: -------------------------------------------------------------------------------------------------------
b: ------------------------------------------------------------------------------------------------------
g: ------------------------------------------------------------------------------------------------------
d: ------2---1------------------------------------------------------------------------------------------
a: --3------------4---2----4--------h----------------3----------h-----------------3----p--p---7----
e: ----------------------------------3-5--5--5--5--5---5--5---3--5--5--5--5--5-----5--3--0-------


e: -------------------------------------------------------------------------------------------------------
b: ------------------------------------------------------------------------------------------------------
g: ------------------------------------------------------------------------------------------------------
d: ---------------------------4--------------------------------------------------------------------5----
a: --h-----------------3-----3-----h---------------------7--6--5-----h--------------------3----3----
e: -3-5--5--5--5--5-----5-------3--5--5--5--5--5--5--------------3-5--5--5--5--5--5----5-------



e: -------------------------------------------------------------------------------------------------------
b: ------------------------------------------------------------------------------------------------------
g: ------------------------------------------------------------------------------------------------------
d: -------------------------------7----------------------------5----------------------------------------
a: --h-----------------3---p-----------h----------------3----3-----h--------------------7--6--5-----
e: -3-5--5--5--5--5-----5-3---------3-5--5--5--5--5---5-------3-5--5--5--5--5--5--------------

Rhy. B


e: -------------------------------------------------------------------------------------------------------
b: ------------------------------------------------------------------------------------------------------
g: ------------------------------------------------------------------------------------------------------
d: ---------------------------5-----------------------------------7--------------------------------5----
a: --h-----------------3-----3-------h----------------3-p-p----5---h--------------------3-----3----
e: -3-5--5--5--5--5-----5---------3-5--5--5--5--5---5-3-0------3-5--5--5--5--5--5----5--------



e: -------------------------------------------------------------------------------------------------------
b: ------------------------------------------------------------------------------------------------------
g: ------------------------------------------------------------------------------------------------------
d: --------------------------------------------------------5----------------------------------------s---
a: --h-----------------7--6--5---h-----------------3----3-----h-------------------3-----------5--7-
e: -3-5--5--5--5--5-------------3-5--5--5--5--5---5--------3-5--5--5---5--5------53---------




e: ----------------------------------------------------------------------------
b: ---------------------------------------------------------------------------
g: ---------------------------------------------------------------------------
d: ----------------------------5---------------------------------------------- End Rhy.B
a: ---h-----------------3-----3------h--------------------------------7----
e: --3-5--5--5--5--5-----5--------3--5--5--5--5--5--5--5--3--0--------


Rhy. C (Night after night)



e: -------------------------------------------------------------------------------------
b: -------------------------------------------------------------------------------------
g: -------------------------------------------------------------------------------------
d: ---h-----------------3--------------------h---------------------------------------- X 4
a: --3-5--5--5--5--5----5--5--5--5--5--3--5--5--5--5--5--6--5--3--5--3-------
e: --------------------------------------------------------------------------------5---


Palm mute



e: ----------------------------------------------------------------------------
: ---------------------------------------------------------------------------
g: ----------------------------------------------------------------------------
d: -------------------------------------------------------------------6-------
a: ----------------------------------------------3--3--3--6--6--6------6---
e: -4--4--4--4--4--4--4--4--4--0----4---4--------------------------------



e: -------------------------------------------------------------------------------------
b: -------------------------------------------------------------------------------------
g: -------------------------------------------------------------------------------------
d: ---h-----------------3--------------------h----------------------------------------
a: --3-5--5--5--5--5----5--5--5--5--5--3--5--5--5--5--5--6--5--3--5--3-------
e: --------------------------------------------------------------------------------5---





e: ----------------------------------------------------------------------------
b: ---------------------------------------------------------------------------
g: ----------------------------------------------------------------------------
d: -------------------------------------------------------------------6-------
a: ----------------------------------------------3--3--3--6--6--6------6---
e: -4--4--4--4--4--4--4--4--4--0----4---4--------------------------------


Rhy. D



e: -------------------------------------------------------------------------------------------------
b: -------------------------------------------------------------------------------------------------
g: -------------------------------------------------------------------------------------------------
d: --9-----------------9------8-----------------7------------------------------------------ x 2
a: --7--------10--7---7------6-----------------5------------------------------------------------
e: --0--0--0--8---5---------------0--0--0--0-----------0----0--0--0--0--0----0--0--00---



e: -------------------------------------------------------------------------------------------------
b: -------------------------------------------------------------------------------------------------
g: -------------------------------------------------------------------------------------------------
d: --9-----------------9------8------------------------------------------------------------ x 2
a: --7--------10--7---7------6-----------------8-8----------------------------------------------
e: -----0--0--8---5---------------0--0--0--0--6-6------0----0--0--0--0--0----0--0--00--

Rhy E.



e: ------------------------------------------------------------------
: ------------------------------------------------------------------
: -------------------------------------------------------------------
d: -----------------------h---8---------------------------h---10--
a: ---h-----------------6-8--6------h------------------6-8---8---
e: --6-8--8--8--8--8---------------6-8--8--8--8--8--------------




Rhy. F x 3 Rhy. F2



e: -------------------------------------------------------------------------------------------------
b: ----------------------h--p----------------------------------------------------------------------
g: --------------------2--4---2--------------------------------------------------------------------
d: --------------------2--4---2----------------------2---------4--------------------------9------
a: --2----4------------------------2---4-------------0----p---2-------------------7-----7------
e: --0----2---2---2---------------0---2---2--2--2------2-0------7--9--9--9--9----9----------





(Rhy. F2 cont.)



e: -------------------------------------------------------------------------------------------------
b: -------------------------------------------------------------------------------------------------
g: -------------------------------------------------------------------------------------------------
d: ----------------------------------------------------------------7--------------------------------
a: ---h-----------------7----------------h-----------------5-----5----h----------------9-8-7---
e: --7-9--9--9--9--9-----9--7--------5-7--7--7--7--7-----7------5-7--7--7--7--7-----------



(That night John)



e: -------------------------------------------------------------------------------------------------
b: -------------------------------------------------------------------------------------------------
g: -------------------------------------------------------------------------------------------------
d: ----------------------10----------------------8--9-10------------------------7--------10----
a: --7--------------------8----------------------6--7--8-------------------------5---------8-----
e: --5----0----0----0---------0----0----0------------------0----0----0----0-------0--0--------




(Last x1)



e: -------------------------------------------------------------------------------------------------
b: -------------------------------------------------------------------------------------------------
g: -------------------------------------------------------------------------------------------------
d: -------------------8--9-10-------------------------8--9-10-----------12---------------------
a: -------------------6--7--8--------------8----7-----6--7--8-----------10---------------------
e: --0----0----0----------------0----0----6----5-----------------0---0--------------------------


hy. G X 2 Rhy. G2



e: -------------------------------------------------------------------------------------------------
b: -------------------------------------------------------------------------------------------------
g: -------------------------------------------------------------------------------------------------
d: -----------------------------------------10--9--7--4--4--4--4--4--4---2--------------------
a: --7--------5------------7-----5-----7---8--7--5--2--2--2--2--2--2---0----5----5---5-----
e: -----0--0-----0--0--0-----0-----0------------------------------------------3-3-3-3-3-3-3--

e: ----------------------------------------------------
b: ----------------------------------------------------
g: ----------------------------------------------------
d: -----4--4--4--4--4--4--4--2---2--2--2--2------
a: -----2--2--2--2--2--2--2--0---0--0--0--0------
e: -0----------------------------------------------3--

e: -------------------------------------------------------------------------------------------------
b: -------------------------------------------------------------------------------------------------
g: -------------------------------------------------------------------------------------------------
d: -----7--6-----5--4----------6--7--------5--4-------3--2------2--4--5--4---5---7--5--4---
a: --5--------7---------5--4----------3------------5----------3---0--2--3--2---3---5--3--2---
e: -------------------------------------------------------------------------------------------------

Paweł Więcek <coven@vmh.net>
All rights reserved.
This page's URL: http://mercyful-fate.coven.vmh.net/tabs/bellwitc.html